  0
SECTION
  2
HEADER
  9
$ACADVER
  1
AC1009
  9
$INSBASE
 10
19.32962338865352
 20
22.47907381993381
 30
0.0
  9
$EXTMIN
 10
19.24639351172215
 20
22.47907381993381
 30
0.0
  9
$EXTMAX
 10
70.00183414176967
 20
75.56521739130451
 30
0.0
  9
$LIMMIN
 10
0.0
 20
0.0
  9
$LIMMAX
 10
420.0
 20
297.0
  9
$ORTHOMODE
 70
     0
  9
$REGENMODE
 70
     0
  9
$FILLMODE
 70
     1
  9
$QTEXTMODE
 70
     0
  9
$MIRRTEXT
 70
     0
  9
$DRAGMODE
 70
     2
  9
$LTSCALE
 40
1.0
  9
$OSMODE
 70
     0
  9
$ATTMODE
 70
     1
  9
$TEXTSIZE
 40
3.5
  9
$TRACEWID
 40
0.1
  9
$TEXTSTYLE
  7
STANDARD
  9
$CLAYER
  8
0
  9
$CELTYPE
  6
BYLAYER
  9
$CECOLOR
 62
   256
  9
$DIMSCALE
 40
1.0
  9
$DIMASZ
 40
2.0
  9
$DIMEXO
 40
1.0
  9
$DIMDLI
 40
8.0
  9
$DIMRND
 40
0.0
  9
$DIMDLE
 40
0.0
  9
$DIMEXE
 40
2.0
  9
$DIMTP
 40
0.1
  9
$DIMTM
 40
0.1
  9
$DIMTXT
 40
3.5
  9
$DIMCEN
 40
2.0
  9
$DIMTSZ
 40
0.0
  9
$DIMTOL
 70
     0
  9
$DIMLIM
 70
     0
  9
$DIMTIH
 70
     0
  9
$DIMTOH
 70
     0
  9
$DIMSE1
 70
     0
  9
$DIMSE2
 70
     0
  9
$DIMTAD
 70
     1
  9
$DIMZIN
 70
     0
  9
$DIMBLK
  1

  9
$DIMASO
 70
     1
  9
$DIMSHO
 70
     0
  9
$DIMPOST
  1

  9
$DIMAPOST
  1

  9
$DIMALT
 70
     0
  9
$DIMALTD
 70
     2
  9
$DIMALTF
 40
25.39999999999999
  9
$DIMLFAC
 40
1.0
  9
$DIMTOFL
 70
     0
  9
$DIMTVP
 40
0.0
  9
$DIMTIX
 70
     0
  9
$DIMSOXD
 70
     0
  9
$DIMSAH
 70
     0
  9
$DIMBLK1
  1

  9
$DIMBLK2
  1

  9
$DIMSTYLE
  2
*UNNAMED
  9
$DIMCLRD
 70
     0
  9
$DIMCLRE
 70
     0
  9
$DIMCLRT
 70
     0
  9
$DIMTFAC
 40
1.0
  9
$DIMGAP
 40
0.09
  9
$LUNITS
 70
     2
  9
$LUPREC
 70
     3
  9
$SKETCHINC
 40
0.1
  9
$FILLETRAD
 40
20.0
  9
$AUNITS
 70
     0
  9
$AUPREC
 70
     1
  9
$MENU
  1

  9
$ELEVATION
 40
0.0
  9
$PELEVATION
 40
0.0
  9
$THICKNESS
 40
0.0
  9
$LIMCHECK
 70
     0
  9
$BLIPMODE
 70
     0
  9
$CHAMFERA
 40
0.0
  9
$CHAMFERB
 40
0.0
  9
$SKPOLY
 70
     1
  9
$TDCREATE
 40
2448539.529623495
  9
$TDUPDATE
 40
2449393.431173379
  9
$TDINDWG
 40
0.0002956019
  9
$TDUSRTIMER
 40
0.0002956019
  9
$USRTIMER
 70
     1
  9
$ANGBASE
 50
0.0
  9
$ANGDIR
 70
     0
  9
$PDMODE
 70
     0
  9
$PDSIZE
 40
0.0
  9
$PLINEWID
 40
0.0
  9
$COORDS
 70
     2
  9
$SPLFRAME
 70
     0
  9
$SPLINETYPE
 70
     6
  9
$SPLINESEGS
 70
     8
  9
$ATTDIA
 70
     1
  9
$ATTREQ
 70
     1
  9
$HANDLING
 70
     0
  9
$HANDSEED
  5
72
  9
$SURFTAB1
 70
     6
  9
$SURFTAB2
 70
     6
  9
$SURFTYPE
 70
     6
  9
$SURFU
 70
     6
  9
$SURFV
 70
     6
  9
$UCSNAME
  2

  9
$UCSORG
 10
0.0
 20
0.0
 30
0.0
  9
$UCSXDIR
 10
1.0
 20
0.0
 30
0.0
  9
$UCSYDIR
 10
0.0
 20
1.0
 30
0.0
  9
$PUCSNAME
  2

  9
$PUCSORG
 10
0.0
 20
0.0
 30
0.0
  9
$PUCSXDIR
 10
1.0
 20
0.0
 30
0.0
  9
$PUCSYDIR
 10
0.0
 20
1.0
 30
0.0
  9
$USERI1
 70
     0
  9
$USERI2
 70
     3
  9
$USERI3
 70
    15
  9
$USERI4
 70
     0
  9
$USERI5
 70
     0
  9
$USERR1
 40
1.0
  9
$USERR2
 40
1.0
  9
$USERR3
 40
0.0
  9
$USERR4
 40
1.0
  9
$USERR5
 40
0.0
  9
$WORLDVIEW
 70
     1
  9
$SHADEDGE
 70
     3
  9
$SHADEDIF
 70
    70
  9
$TILEMODE
 70
     1
  9
$MAXACTVP
 70
    16
  9
$PINSBASE
 10
0.0
 20
0.0
 30
0.0
  9
$PLIMCHECK
 70
     0
  9
$PEXTMIN
 10
1.000000000000000E+20
 20
1.000000000000000E+20
 30
1.000000000000000E+20
  9
$PEXTMAX
 10
-1.000000000000000E+20
 20
-1.000000000000000E+20
 30
-1.000000000000000E+20
  9
$PLIMMIN
 10
0.0
 20
0.0
  9
$PLIMMAX
 10
12.0
 20
9.0
  9
$UNITMODE
 70
     0
  9
$VISRETAIN
 70
     0
  9
$PLINEGEN
 70
     0
  9
$PSLTSCALE
 70
     0
  9
$TREEDEPTH
 70
  3020
  9
$DWGCODEPAGE
  3
undefined
  0
ENDSEC
  0
SECTION
  2
TABLES
  0
TABLE
  2
VPORT
 70
     2
  0
VPORT
  2
*ACTIVE
 70
     0
 10
0.0
 20
0.0
 11
1.0
 21
1.0
 12
55.97825021563594
 22
51.20787027328867
 13
0.0
 23
0.0
 14
1.0
 24
1.0
 15
10.0
 25
10.0
 16
0.0
 26
0.0
 36
1.0
 17
0.0
 27
0.0
 37
0.0
 40
57.45759290670972
 41
1.275675675675675
 42
50.0
 43
0.0
 44
0.0
 50
0.0
 51
0.0
 71
     0
 72
   100
 73
     1
 74
     0
 75
     0
 76
     0
 77
     0
 78
     0
  0
ENDTAB
  0
TABLE
  2
LTYPE
 70
     2
  0
LTYPE
  2
AUSGEZOGEN
 70
    64
  3
Solid line
 72
    65
 73
     0
 40
0.0
  0
LTYPE
  2
ITEM-STRICHPUNKT
 70
    64
  3
__ . __ . __
 72
    65
 73
     4
 40
3.599999999999999
 49
2.399999999999999
 49
-0.6
 49
0.0
 49
-0.6
  0
ENDTAB
  0
TABLE
  2
LAYER
 70
     4
  0
LAYER
  2
0
 70
     0
 62
     7
  6
AUSGEZOGEN
  0
LAYER
  2
ITEM_50
 70
    64
 62
     7
  6
AUSGEZOGEN
  0
LAYER
  2
ITEM_25
 70
    64
 62
     3
  6
AUSGEZOGEN
  0
LAYER
  2
ITEM_STP
 70
    64
 62
     4
  6
ITEM-STRICHPUNKT
  0
ENDTAB
  0
TABLE
  2
STYLE
 70
     1
  0
STYLE
  2
STANDARD
 70
     0
 40
0.0
 41
1.0
 50
0.0
 71
     0
 42
3.5
  3
iso
  4

  0
ENDTAB
  0
TABLE
  2
VIEW
 70
     0
  0
ENDTAB
  0
TABLE
  2
UCS
 70
     0
  0
ENDTAB
  0
TABLE
  2
APPID
 70
     1
  0
APPID
  2
ACAD
 70
    64
  0
ENDTAB
  0
TABLE
  2
DIMSTYLE
 70
     0
  0
ENDTAB
  0
ENDSEC
  0
SECTION
  2
BLOCKS
  0
ENDSEC
  0
SECTION
  2
ENTITIES
  0
LINE
  8
ITEM_STP
 10
27.32962338865637
 20
36.06521739130751
 30
0.0
 11
27.32962338865637
 21
33.30868003546557
 31
0.0
  0
LINE
  8
ITEM_STP
 10
27.32962338865637
 20
36.06521739130751
 30
0.0
 11
24.57308603281443
 21
36.06521739130751
 31
0.0
  0
LINE
  8
ITEM_STP
 10
27.32962338865637
 20
36.06521739130751
 30
0.0
 11
27.32962338865637
 21
38.82175474714945
 31
0.0
  0
LINE
  8
ITEM_STP
 10
27.32962338865637
 20
36.06521739130751
 30
0.0
 11
30.08616074449831
 21
36.06521739130751
 31
0.0
  0
ARC
  8
ITEM_25
 10
27.32962338865637
 20
36.06521739130751
 30
0.0
 40
2.000000000000008
 50
170.9999999999998
 51
99.00000000000018
  0
CIRCLE
  8
ITEM_50
 10
27.32962338865637
 20
36.06521739130751
 30
0.0
 40
1.62
  0
LINE
  8
ITEM_50
 10
35.32962338865637
 20
49.65136096268123
 30
0.0
 11
35.32962338865637
 21
38.47907381993378
 31
0.0
  0
LINE
  8
ITEM_50
 10
19.32962338865637
 20
22.47907381993381
 30
0.0
 11
19.32962338865637
 21
33.65136096268123
 31
0.0
  0
LINE
  8
ITEM_50
 10
23.32962338865634
 20
37.6513609626812
 30
0.0
 11
23.32962338865634
 21
26.47907381993378
 31
0.0
  0
LINE
  8
ITEM_50
 10
31.32962338865637
 20
45.65136096268123
 30
0.0
 11
31.32962338865637
 21
34.47907381993378
 31
0.0
  0
LINE
  8
ITEM_50
 10
19.32962338865637
 20
33.65136096268123
 30
0.0
 11
35.32962338865637
 21
49.65136096268123
 31
0.0
  0
LINE
  8
ITEM_50
 10
35.32962338865637
 20
38.47907381993378
 30
0.0
 11
19.32962338865637
 21
22.47907381993381
 31
0.0
  0
LINE
  8
ITEM_50
 10
35.02962338866554
 20
67.56521739130434
 30
0.0
 11
31.86479794571024
 21
67.56521739130434
 31
0.0
  0
ARC
  8
ITEM_50
 10
19.62962338865351
 20
67.26521739130433
 30
0.0
 40
0.2999999999999944
 50
90.0
 51
224.9999999999923
  0
LINE
  8
ITEM_50
 10
19.62962338865351
 20
67.56521739130434
 30
0.0
 11
22.79444883160882
 21
67.56521739130434
 31
0.0
  0
ARC
  8
ITEM_50
 10
22.79444883160882
 20
68.06521739130434
 30
0.0
 40
0.5
 50
270.0
 51
355.0000000000005
  0
LINE
  8
ITEM_50
 10
23.29254618065472
 20
68.02163951993051
 30
0.0
 11
23.51508040919533
 21
70.56521739130451
 31
0.0
  0
LINE
  8
ITEM_50
 10
23.51508040919533
 20
70.56521739130457
 30
0.0
 11
31.14416636812372
 21
70.56521739130451
 31
0.0
  0
ARC
  8
ITEM_50
 10
35.02962338866548
 20
67.26521739130438
 30
0.0
 40
0.2999999999999545
 50
314.9999999999923
 51
90.0
  0
LINE
  8
ITEM_50
 10
35.24175542302141
 20
67.0530853569484
 30
0.0
 11
31.25388745737742
 21
63.06521739130434
 31
0.0
  0
LINE
  8
ITEM_50
 10
31.25388745737742
 20
63.06521739130434
 30
0.0
 11
27.32962338865953
 21
63.06521739130434
 31
0.0
  0
LINE
  8
ITEM_50
 10
27.32962338865953
 20
63.06521739130434
 30
0.0
 11
23.40535931994164
 21
63.06521739130434
 31
0.0
  0
LINE
  8
ITEM_50
 10
23.40535931994164
 20
63.06521739130434
 30
0.0
 11
19.41749135429752
 21
67.0530853569484
 31
0.0
  0
ARC
  8
ITEM_50
 10
31.86479794571024
 20
68.06521739130434
 30
0.0
 40
0.5
 50
184.9999999999994
 51
270.0
  0
LINE
  8
ITEM_50
 10
31.36670059666433
 20
68.02163951993051
 30
0.0
 11
31.14416636812372
 21
70.56521739130451
 31
0.0
  0
LINE
  8
ITEM_STP
 10
27.32962338865953
 20
75.56521739130451
 30
0.0
 11
27.32962338865953
 21
58.06521739130434
 31
0.0
  0
LINE
  8
ITEM_STP
 10
56.32962338866523
 20
75.5652173913014
 30
0.0
 11
56.32962338866523
 21
58.0652173913012
 31
0.0
  0
ARC
  8
ITEM_50
 10
45.97440996973494
 20
68.0652173913012
 30
0.0
 40
0.5
 50
270.0000000000007
 51
355.0338238520336
  0
LINE
  8
ITEM_50
 10
46.47253295764154
 20
68.02193357308918
 30
0.0
 11
46.69352864971293
 21
70.5652173913014
 31
0.0
  0
LINE
  8
ITEM_50
 10
46.69352864971293
 20
70.5652173913014
 30
0.0
 11
54.79352864971298
 21
70.56521739130137
 31
0.0
  0
LINE
  8
ITEM_50
 10
54.79352864971298
 20
70.56521739130137
 30
0.0
 11
55.01452434178427
 21
68.02193357308918
 31
0.0
  0
ARC
  8
ITEM_50
 10
55.51264732969085
 20
68.06521739130118
 30
0.0
 40
0.4999999999999922
 50
184.9661761479648
 51
270.0
  0
LINE
  8
ITEM_50
 10
55.51264732969085
 20
67.5652173913012
 30
0.0
 11
69.61581579246899
 21
67.56521739130114
 31
0.0
  0
ARC
  8
ITEM_50
 10
69.61581579246899
 20
67.26521739130113
 30
0.0
 40
0.3000000000000114
 50
318.7240579727494
 51
90.0
  0
LINE
  8
ITEM_50
 10
69.84127815124509
 20
67.06731154304212
 30
0.0
 11
66.32832884027249
 21
63.06521739130117
 31
0.0
  0
LINE
  8
ITEM_50
 10
66.32832884027249
 20
63.06521739130117
 30
0.0
 11
46.44274152732089
 21
63.0652173913012
 31
0.0
  0
LINE
  8
ITEM_50
 10
46.44274152732089
 20
63.0652173913012
 30
0.0
 11
42.8211250015988
 21
67.06382638867624
 31
0.0
  0
ARC
  8
ITEM_50
 10
43.04347981729149
 20
67.26521739130119
 30
0.0
 40
0.3000000000000122
 50
90.0
 51
222.1677372336725
  0
LINE
  8
ITEM_50
 10
43.04347981729149
 20
67.5652173913012
 30
0.0
 11
45.9744116053368
 21
67.5652173913012
 31
0.0
  0
ARC
  8
ITEM_50
 10
58.31779271843937
 20
67.26521739130116
 30
0.0
 40
0.3000000000000114
 50
318.7240579727494
 51
90.0
  0
LINE
  8
ITEM_50
 10
58.54325507721546
 20
67.06731154304215
 30
0.0
 11
55.03030576624284
 21
63.06521739130117
 31
0.0
  0
LINE
  8
ITEM_50
 10
54.79352864971298
 20
70.56521739130137
 30
0.0
 11
65.96581579246043
 21
70.56521739130137
 31
0.0
  0
LINE
  8
ITEM_50
 10
65.96581579246043
 20
70.56521739130137
 30
0.0
 11
66.18681148453174
 21
68.02193357308915
 31
0.0
  0
ARC
  8
ITEM_50
 10
66.68493447243832
 20
68.06521739130117
 30
0.0
 40
0.4999999999999934
 50
184.9661761479664
 51
270.0
  0
ENDSEC
  0
EOF
